• Chwyty/Teksty
  • Akordy
  • Przydatne programy...
  • O mnie
  •                               

piątek, 17 stycznia 2014

Smells Like Teen Spirit – Nirvana



Akordy Występujące w Tej Piosence: C#5, F5, Bb5, G#5

Load up on guns and bring your friends.
 It`s fun to lose and to pretend.
 She`s over bored and self assured.
 Oh no, I know a dirty word.
 Hello? hello? hello? How low.
 Hello? hello? hello? How low.
 Hello? hello? hello? How low.
 Hello? hello? hello?
 With the lights out it`s less dangerous.
 Here we are now. Entertain us.
 I feel stupid and contagious.
 Here we are now. Entertain us.
 A mulato, an albino,
 A mosquito, my libido. Yeah.

Where Did You Sleep Last Night – Nirvana

E5 A G B B/F#

E-|-----------------|-
B-|-----------------|-
G-|-----------------|-
D-|--------------2--|-
A-|--------------0--|-
E-|--0--2--3--0-----|-

E5 E5 E5 A G
My girl, my girl, don't lie to me...
G B B/F# E5
Tell me where did you sleep last night...
In the pines, in the pines
Where the sun don't ever shine
I would shiver the whole night through

My girl, my girl, where will you go
I'm going where the cold wind blows
In the pines, in the pines
Where the sun don't ever shine
I would shiver the whole night through

Her husband, was a hard working man
Just about a mile from here
His head was found in a driving wheel
But his body never was found

My girl, my girl, don't lie to me
Tell me where did you sleep last night
In the pines, in the pines
Where the sun don't ever shine
I will shiver the whole night through

Something in the way – Nirvana


e                         C
Underneath the bridge
tarp has sprung a leak And the
animals I've trapped
Have all become my pets And I'm
living off of grass And the
drippings from the ceiling
But it's ok to eat fish Cause
they haven't any feelings
Something in the way
Ummmmmmmmmmm

sappy – Nirvana

D A# G A
And if you save yourself

A# F D
You will make him happy

A# G A
He'll keep you in a jar

A# F D
And you'll think you're happy

A# G A
He'll give you breathing holes

A# F D
And you'll think you're happy

A# G A
He'll cover you with dust

Smells Like Spirit – Nirvana

Intro: E, A, G, C (x4)
Verse Intro: E, A, G, C (x2)
Verse: E A G
Load up on guns C E
Bring your friends A G
It's fun to lose C E
And to pretend A G
She's overboard C E
Myself assured A G C E
I know I know a dirty word E A G C
Hello, hello, hello, how low (x4)
Chorus:
E With the lights out
A G It's less dangerous C E

Lithium – Nirvana

Zwrotka i refren: E Gis Cis A C D A# D
verse and chorus:

I'm so happy 'cause today I've found my friends
They're in my head
I'm so ugly, that's ok., 'cause so are you
We've broke our mirrors
Sunday morning is everyday for all I care
I'm not scared
Light my candels in a daze 'cause I've found god

I'm so lonely, that's ok., I shaved my head
I'm not sad
And just maybe I'm to blame for all I've heard
I'm not sure
I'm so excited I can't wait to meet you there
I don't care
I'm so horny that's ok., my will is good

I like you, I'm not gonna crack A C
I miss you, I'm not gonna crack
I love you, I'm not gonna crack
I killed you I'm not gonna crack A C D A E

Molly lips – Nirvana

(A D) |
She said |
She'd take me anywhere |
She'd take me anywhere |
As long as she stays with me |
She said |
She'd take me anywhere |
She'd take me anywhere | x
As long as I stayed clean | 2
Kiss, kiss |
Molly's lips |
Kiss, kiss |
Molly's lips |
Kiss, kiss |
Molly's lips |
Kiss, kiss |
Molly's lips |

(A D) x8

Opinion – Nirvana

(H,G,D,F#)
Congratulations, you have won
It's a years subscription of bad puns
If it makes you a story, i'm concerned
And you set it up, before it burns

My opinions
My opinions
My opinions
My opinions

PennyRoyal Tea – Nirvana

I’m on my time with everyone A5 G
I have very bad posture

Sit and drink PennyRoyal Tea C D B
Distill the life thats’s inside of me
Sit and drink PennyRoyal Tea
I’m anemic royalty

Give me a Leonard Cohen afterworld a G
So I can sigh eternally

Polly – Nirvana

[Em] [G] [D] [C]
[Em] [G] [D] [C]


Polly wants a cracker Em G D C
I think I should get off her first Em G D C
I think she wants some water Em G D C
To put out the blow torch Em G D C


It isn't me - We have some seed D C G Bb D
Let me clip - Your dirty wings C G Bb D
Let me take a ride - Don't hurt yourself C G Bb D
I want some help - To please myself C G Bb D
I've got some rope - You have been told C G Bb D
I promise you - I've been true C G Bb D
Let me take a ride - Don't hurt yourself C G Bb D
I want some help - To please myself C G Bb


Rape me – Nirvana

Rape Me

Rape me
Rape me, my friend
Rape me
Rape me again

I'm not the only one
I'm not the only one
I'm not the only one
I'm not the only one

Do Re Mi – Nirvana

E5
If I may
G#5
If I might
C#5
Let me down
F#
We'd be

E5
And if I say
G#5
What it's like
C#5
I might be
F#
Dreaming

E5
If I may
G#5
What is right
C#5
Some may time
F# B A5 C#5 H5
To see me bleed

Heart Shaped Box – Nirvana

e--------------------------------------------------------
B--------------------------------------------------------
G--------------------------------------------------------
D--------9-----------5-----------2--2--------------------
A-----9-----9-----5-----5-----2--------2-----------------
E--7-----------3-----------0--------------0--------------


---------------------------------------------------------
---------------------------------------------------------
------------------------------0/1--1--1--1---------------
--------9-----------5-----------------------2-----2------
-----9-----9-----5-----5-----------------------2---------
--7-----------3-----------0------------------------------


For the chords we are not so sure of the exact notes so we play:

e-(7)-(3)--0--- This is played up until the
B-(7)-(3)--0--- end of the chorus repeatedly,
G-(8)-(4)--1--- until the "Your priceless
D--9---5---2--- advice" where instead of
A--9---5---2--- going E-7-3-0-7-3-0 it goes
E--7---3---0--- E-7-3-0-3-0-3. I hope you
follow that as it is pretty simple.
We would be pleased to receive any improvements.

See ya 'gain,
Luce and the rest of Hug.

HEART-SHAPED BOX Lyrics (from In Utero):

She eyes me like a pisces when I am weak
I've been locked inside your heart-shaped box for a week
I was drawn into your magnet tar pit trap
I wish I could eat your cancer when you turn black

Hey
Wait
I've got a new complaint
Forever in debt to your priceless advice
Hate
Haight
I've got a new complaint
Forever in debt to your priceless advice
Hey
Wait
I've got a new complaint
Forever in debt to your priceless advice

In Bloom – Nirvana

Sell the kids for food   g B c
Weather changes moods   g B c
Spring is here again   g c a
Reproductive glands   g c a

He's the one   G a
Who likes all the pretty songs   G a
And he likes to sing along   G a
And he likes to shoot his gun   G a
But he knows not what it mean   d a
Knows not what it mean   d a
And I say

Jesus don't want me for a sunbeam – Nirvana

Intro: E-D-A-; (2x)

E           D               A
Jesus don't want me for a sunbeam
E              D             A
Sunbeams are never made like me
E                  D                  A                    
Don't expect me to cry, for all the reasons you had to die
E           D             A
Don't ever ask your love of me

About a gir – Nirvana

Em    G Em     G Em    G Em     G


Em    G Em     G Em    G Em     G


Em G            Em    G
I   need   an   easy   friend

Em      G            Em           G
I   do   with   a   hand   to   lend

Em     G          Em          G
I   do  think   you   fit   this   shoe

Em     G                       Em         G

Came As You Are – Nirvana

Intro: repeat main riff 3x

Em D
E---------------------------------------------|
B---------------------------------------------|
G---------------------------------------------|
D---------------------------------------------|
A---------------0-----0--------------2--------|
E--0--0--1--2------2-----2--2--1--0-----0--0--|


Em D Em D Em
Come as you are, as you were, as I want you to be
D Em D Em
As a friend, as a friend, as an old enemy
D Em D Em
Take your time, hurry up, The choice is yours, don't be late
D Em D E G
Take a rest, as a friend, as an old memoria
E G E G E G
memoria, memoria, memoria

Come As You Are – Nirvana

Intro: Em-D-; (4x)
Em           D          Em
Come as you are, as you were
     D           Em
As I want you to be
     D            Em
As a friend, best friend
           D          Em
There's an old little me
          D           Em
Take your time, hurry up
              D               Em
The choice is your's don't be late
       D          Em
Take a rest, as a friend,
      D      Em   D
As an old memory, yeah
Em      D

Całuj mnie – Piersi



Kupiłem sobie "dżiny", buty, czapkę i pas. D A h G A D AhGA
Opuszczam Amerykę, byłem tam pięć lat,
Lecz tęsknię już tak bardzo, że nie mogę spać, nie mogę jeść.
Marzeniem moim twarz zobaczyć twoją jest.
Wiozę torby z darami w aucie z alufelgami,
Portfel cały wypchany dolarami, a ty...

Ref:
A ty całuj mnie, to taka piękna gra ! D A h G A DAhGA
Całuj mnie, ja ci to wszystko dam !

Podjadę pod okienko twe, zastukam co sił.
Nie będę stukał, bo szybę bym zbił,
A ty mi zaraz otworzysz, jestem bogaty więc możesz,
Twój ojciec, co w polu orze, nie będzie mnie bił.
Dam ci torby z darami, auto z alufelgami,
Portfel cały wypchany dolarami, a ty...

Choć tu miła – Piersi

na polanie usiadł biały ptaszek                              C G A H C
idzie dróżką do kochanki jasiek
konik polny trzęsie złotą grzywą
wodnik topi żabę ledwo żywą

ref:
choć tu miła będziesz zemną wino piła                  C F G
choć tu miła będziesz wino piła                  x2       C

lata bączek po błękitnym niebie
krowy ryczą świnki śmierdzą w chlewie
rośnie owies gryka i przenica
łapie józek górę dla sołtysa

Leżę – Kukiz


Leżę, leżę, uwaliłem się jak zwierzę czystą wódką C G 
Leżę, leżę, rzygam jajkiem w majonezie i kiełbasą G C 

Atak było cudownie przed chwilą F C 
Piękne panie, grzane wino G F C 
Piękne panie, a środku ja F C 
Wtedy nagle wyskoczył mi paw G C 

A mówili mi przyjaciele 
Nie mieszaj ogórków z dżemem 
Musztardy z kisielem i śliwek z likierem 
Żołądek to nie San Francisco 

Maryna – Piersi

Maryna A
Chcę ciebie i już D A
Dziewczyno A
Tak ostra jak nóż D A
To ty i już D
Reszta to popelina A
Ja wiem że ty D
Pokochasz mnie Maryna E

Maryna
Chcę ciebie jak nikt
Bez ciebie
Nie warto jest żyć

Lombardino – Piersi


Kiedyś byłaś mą dziewczyną (C) G
Lecz się zjawił Lombardino C
Leżał z tobą pod pierzyną G
Kiedy otworzyłem drzwi C

A po twarzy łzy mi płyną
Lombardino Lombardino
Wypił nawet twoje wino
Na gitarze mojej gra (F C G C x2)

Lombardino Lombardino
Jak namówił cię na kino
Były filmy z Ciccioliną
A za oknem padał deszcz

Lombardino był uroczy
Pokochałaś jego oczy
Nie wiedziałaś, że się stoczysz
Nie wiedziałaś wtedy nic

Jesteś dla mnie tylko świnią
Bo uległaś Lombardino
Lombardino Lombardino
W czym ode mnie lepszy jest

Ja ufałem ci dziewczyno
A ty poszłaś z Lombardino
Lombardino Lombardino
W moim łóżku tuli cię

Wczoraj znowu byłem w chacie
Jadł śniadanie w mym krawacie
Miał na sobie moje gacie
I kiełbasą karmił psa

Lata płyną, lata płyną
Mieszka z nami Lombardino
Z mą dziewczyną, z mą jedyną
Lombardino, ja i ty

Nie samym chlebem człowiek żyje – Piersi



Das ist seht lange, alte Geschihte
Sie war aus Polen
und Er war aus Amerika
Zwei Herzen und zwei Namen...

Mein Son
Du must dein Heimat besuchen
und eine Frau mit bringen

Kiedy miałem lat czterdzieści osiem C
Wziął mnie ojciec i tak do mnie rzekł G C
Synu powiem ci ostatnią wolę
Musisz z ojczyzny mej żonę mieć

czwartek, 16 stycznia 2014

Rezerwa – Piersi

Chodzi żandarmeria koło mego domu A
Długo nie pochodzą, bo ja tu nie mieszkam E
Chodzi żandarmeria w nocy po kryjomu
Długo nie pochodzą, bo ja tu nie mieszkam A

Wzięli już do armii Józka i Franciszka
Ale mnie nie wezmą, bo ja tu nie mieszkam
Wzięli całą wioskę, wywieźli do Leszna
Lecz mnie nie wywiezą, bo ja tu nie mieszkam

Przyszła żandarmeria - Gdzie jest ten koleżka?
A matula rzekła - Łon tutaj nie mieszka
Byli też żandarmi u mojego teścia
Teść się tylko zaśmiał - On już tu nie mieszka

ZChN zbliża się – Piersi


F
Ksiądz proboszcz już się zbliża
                           C
Już puka do mych drzwi

Pobiegnę go przywitać
            B     C      F
W mym ręku wino drży

O szczęście niepojęte
                                C
Ksiądz sam odwiedza mnie
    B                       F
Sąsiedzie wspomóż rentą
        B         C       F
Bym mógł pokazać się


W spiżarni trzymam koniak
W lodówce wódki dwie
Pobiegnę po kieliszki
Ksiądz lubi napić się
O szczęście nie pojęte
Ksiądz wypił flaszki dwie
Sprowadzę go po schodach
Bo sam wywróci się

Zośka – Piersi


Trzepała Zośka dywan D
Z dywanu leciał kurz A
Tak ciężko pracowała
Że siły nie ma już D

Więc radio se włączyła
A w radiu chłopak grał
I lżej się jej robiło
Gdy dla niej tak śpiewał

Bałkanica – Piersi



/d/Bałkańska w żyłach płynie krew,
kobiety, wino, taniec, śpiew.
/G/Zasady proste w życiu mam,
/d/nie rób drugiemu tego-
czego ty nie chcesz sam!

Muzyka, przyjaźń, radość, śmiech.
Życie łatwiejsze staje się.
Przynieście dla mnie wina dzban,
potem ruszamy razem w tan.

Ref:

A Modern Myth – 30 Seconds To Mars

Strojenie: Drop D

Chords:   D5 - A#5 - G5 - C5
          -     -    -    -
          -     -    -    -
          7     3    -    5
          7     3    5    5
          5     1    5    3
          -     -    5    -

Intro

D5   A#5   G5   -   D5   A#5   C5

       D5            A#5
  Do we create ... myth?
      G5
  Do we imagine ...
           D5       A#5
  What happened ... now.

Beautiful Lie – 30 Seconds To Mars

Am
  Lie awake in bed at night
                      F
  And think about your life
Do you want to be different, different?
Dm
Try to let go of the truth
                      E
The balance of your youth
Cause this is just a game

                 Am
It's a beautiful lie
                 F
It's a perfect denial
                 Dm
Such a beautiful lie to believe in
   E
So beautiful, beautiful
E
That makes me...

From Yesterday – 30 Seconds To Mars


Intro:Eb-Gm(2X)
       Eb
He's a stranger ...
       Gm
He can never ...
      Eb
For a fortune ...
       Gm
How it ends ...    
     Eb
... the world
             Gm
(...the world)
     Eb
... world
      Gm
(... world)

Chorus:
      Bb              F
From yesterday, it's coming!
      Gm             Eb - F
From yesterday, the fear!
      Bb            F
From yesterday, it calls him
    Eb                  F   -  Bb
But he doesn't ... message here

The Kill – 30 Seconds To Mars

Zwrotka 1:
What if I wanted...     C   D
                        e
                        h

What if I fell to...    C   D
                        e
                        h

REFREN:
 Come... C    D
         e
         h

Crumbs from your table – U2

              D              G                  D            A
From the brightest star Comes the blackest hole
              D              G                           D             A
You had so much to offer Why did you offer your soul?
          D               G                         D             A
I was there for you baby When you needed my help
           D                    G                   D               A
Would you deny for others What you demand for yourself?


D                   A     D    G
Cool down mama, cool off
Cool down mama, cool off

Even Better Than the Real Thing – U2


Ok. A couple of mistakes were corrected. Most totably the slides on the
solo, one of the notes in the main riff and the first part of the bridge was
put onto the correct string (sorry this was my first TAB)
I'm still a bit rough on Riff 2 so I'd appreciate some help there.
I suggest a lot of delay and some distortion (especially at the beginning).

b=bend
r=release
/=slide up
\=slide down
Note: The intro is actually played on another guitar and it continues into
the middle of the first verse.

Intro: (8x) | Riff 1
E--------5-5-----|------------------------------------------
B----------------|------------------------------------------
G----------------|-----------6br----------------------------
D----------------|--------------------4--5--4---------------
A----------------|----------------5-------------------------
E--5-5-----------|------5-----------------------------------

-Riff 1-

Get on your boots – U2

Intro: x4
e | ----------------------------------
B | ----------------------------------
G | ----------------------------------
A | -5-3---3---5-3---3-3--------------
E | -----5---5-----5-----5-3-5--------



      D           G
 The future needs a big kiss
         D         G
 Winds blows with a twist
  D            G
 Never seen a moon like this
      D        G
 Can you see it too?


       D         G
 Night is falling everywhere
  D              G
 Rockets at the fun fair
  D             G
 Satan loves a bomb scare
         D           G
 But he won't scare you

Kite – U2

Zwrotka
E              A                E              A
Something is about to give
                  E       A                             E          A
I can feel it coming I think I know what it is
                        E   A                    E         A
I'm not afraid to die I'm not afraid to live
                     E            A                                  E    A
And when I'm flat on my back I hope to feel like I did

(enter 2 slide guitar tracks):
-------------------------
--4/5--4/5--4/5\4\2------
--4/6--4/6--4/6\4\2------
-------------------------
-------------------------
-------------------------

Love Is Blindness – U2


tabbed by: Harry C. Nye, hcnyeiv@esu.edu


Bm A
Love is blindness, I don't want to see
G Em
Won't you wrap the night around me
Bm F# Bm
Take my heart, love is blindness

Magnificent – U2

Intro:
F#m   F#m   F#m   F#m
F#m   F#m   F#m   F#m
F#m   F#m   F#m   F#m
F#m   F#m   F#m   F#m
F#m   F#m   F#m   F#m
F#m   F#m

F#m   C#m   A     E     B         Hm
                     Magnificent.
F#m   C#m   A     E             H         Hm
                     Oh, oh, magnificent.
Hm    Hm

Verse 1:

Mysterious Ways – U2


MYSTERIOUS WAYS (live with solo) - U2

-corrections-
*Mysterious Ways--Actually, the guy had the right
chord changes, I think, but the song is done easier
when tuned down 1/2 step, and played in B major (which
gives it a Bb tone). Just tune down 1/2 step and use power
chords with a lot of distortion, flange, and wah. The 4
chords are: B, E, A, D.
(from Leniart, Brandon K (leniarbk@jmu.edu))



This is called RIFF A

with extensive use of wah peddle
E--6---6-----x---x---4/5-----
B--6---6-----x---x---4/5-----
G--7---7-----x---x---5/6-----
D--8---------x---x---6/7-----
A--8---------x---x---6/7-----
E--6---------x---x---4/5-----

Riff A formations
Bb: fret 6
Eb: fret 11
Db: fret 9
Ab: fret 4


Bb w/Riff A (x8)

Bb
Johnny took a walk
Eb
With your sister the moon
Bb
Let her pale light in
F
To fill up your room
Bb
You've been living underground
Eb
Eating from a can

Bb
You've been running away
F
Prechorus w/Riff A
Bb
She's slippy
Eb
You're sliding down
Bb
She'll be there
Eb
When you hit the ground

Chorus w/Riff A
Bb Eb
It's alright...it's alright...it's alright
Db Ab
She moves in mysterious ways
Bb Eb
It's alright...it's alright...it's alright
Db Ab
She moves in mysterious ways
Johnny take a dive
With your sister in the rain
Let her talk about the things
You can't explain
To touch is to heal
To hurt is to steal
If you want to kiss the sky
Better learn how to kneel (...on your knees boy!)

She's the wave
She turns the tide
She sees the man inside the child

It's alright...it's alright...it's alright
She moves in mysterious ways
It's alright...it's alright...it's alright
She moves in mysterious ways
It's alright...it's alright...it's alright
She moves in mysterious ways
It's alright...it's alright...it's alright
Lift my days...light up my nights

Normal Solo:
E-16-18-16-18-16-18-16-18-16-18-------
B-------------------------------------
G-------------------------------------
D-------------------------------------
A-------------------------------------
E-------------------------------------
(Repeat above riff 5 times)

E-10-10-10-10-10-10-11-10--8----------
B-------------------------------------
G-------------------------------------
D-------------------------------------
A-------------------------------------
E-------------------------------------
(Repeat above riff 6 times) (Give plenty of wah peddle on this)

Live solo:
E-------------------|--------------------
B-12/18-18-18-18-16-|-14-13-14-13-11-9---
G-------------------|--------------------
D-------------------|--------------------
A-------------------|--------------------
E-------------------|--------------------
*Play this 3 times*

E-------------------|----------------18-16-15-16-18--
B-12/18-18-18-18-16-|-12/18-18-18-18-----------------
G-------------------|--------------------------------
D-------------------|--------------------------------
A-------------------|--------------------------------
E-------------------|--------------------------------
*Play this 2 times*

E----18----18----18----18----18----18----20(bend)-18-16-15-16-15-13-
B-18----18----18----18----18----18----------------------------------
G-------------------------------------------------------------------
D-------------------------------------------------------------------
A-------------------------------------------------------------------
E-------------------------------------------------------------------

Bridge: (Strum each chord once, and let ring)

Bb-minor Eb
One day you'll look back
Bb-minor
And you'll see

Where
Ab
You were held how
Bb
By this love

While
Eb
You could stand

There
Db

And not move on this moment
Ab
Follow this feeling


It's alright...it's alright...it's alright
She moves in mysterious ways
It's alright...it's alright...it's alright
We move through miracle days
Spirit moves in mysterious ways
She woves with it
She woves with it
Db Ab Bb
Lift my days and light up my nights

--------------430820330C5--





"Mysterious Ways"
---------------

tabbed by: Scott Yanoff, yanoff@csd4.csd.uwm.edu

(Heavy distortion recommended)

This song can be played with a capo on the 8th fret, if you can do that.
Then it becomes fairly simple just playing D instead of A, etc. (see the
chord formations). Or you can play it with a capo on 1st fret, which is
how I've finally put the chords. [Editor's Comment]

Intro/transitions: (Repeated about 9 times)
E--------------------------------------
B------10-10---------------------------
G-------9--9---------------------------
D----7--7--7---------------------------
A-10-----------------------------------
E--------------------------------------
(Note: the above is basically the A chord played on a few strings)

(Note: chords given below generally are played by an organ in background)

A D
Johnny took a walk with your sister the moon
A E
Let her pale light in to fill up your room
A D
You've been living underground, eating from a can
A E A
You've been running away from what you don't understand (love)

Chorus: (the chorus basically just switches back between the A and D chords)

E--------------10-10-|-----------------
B------10-10---10-10-|-----------------
G-------9--9----7--7-|-----------------
D-------7--7---------|-----------------
A--------------------|-----------------
E--------------------|-----------------
(A) (D)

(So, when you see A or D, play the above chord formations, respectively)

A D
She's slippy, you're sliding down
A D
She'll be there when you hit the ground

A D
It's alright...it's alright...it's alright
C G
She moves in mysterious ways
A D
It's alright...it's alright...it's alright
C G
She moves in mysterious ways

Johnny take a dive with your sister in the rain
Let her talk about the things you can't explain
To touch is to heal, to hurt is to steal
If you want to kiss the sky
Better learn how to kneel (...on your knees boy!)

She's the wave, she turns the tide
She sees the man inside the child

It's alright...it's alright...it's alright
She moves in mysterious ways (x3)
It's alright...it's alright...it's alright
Lift my days...light up my nights

Guitar Solo:
E-15-17-15-17-15-17-15-17-15-17-------
B-------------------------------------
G-------------------------------------
D-------------------------------------
A-------------------------------------
E-------------------------------------
(Repeat above riff 5 times)

E--9--9--9--9--9--9-10--9--7----------
B-10-10-10-10-10-10-10-10-10----------
G--9--9--9--9--9--9--9--9--9----------
D-------------------------------------
A-------------------------------------
E-------------------------------------
(Repeat above riff 6 times) (Note: this is just a "play" on the A chord)

Bridge: (Strum each chord once, and let ring)

Am D Am
One day you'll look back and you'll see
G A
Where you were held how by this love
D
While you could stand there
C
And not move on this moment
G
Follow this feeling

It's alright...it's alright...it's alright
She moves in mysterious ways
It's alright...it's alright...it's alright
We move through miracle days
Spirit moves in mysterious ways
She moves with it, she moves with it
C G A
Lift my days and light up my nights

CHORD FORMATIONS: (8th fret equivalence)
A x x 7 9 10 9 (D chord formation)
D 10 9 7 7 10 10 (G/D chord formation)
E x 7 9 9 9 x (A chord formation)
C 8 10 10 9 8 8 (F chord formation)
G 7 10 9 7 8 x (C chord formation)
Am x x 7 9 10 8 (Dm chord formation)

----------------------------------

Mysterious Ways by U2 (album version)
Transcribed by Richard Zangoli (ahowden@magna.com.au)
I saw the transcriptions to this song on the Archive and noticed
some mistakes and that they weren't 100% complete. This is the complete tab
to the album version and I can guarantee that it is quite accurate because I
used a professional transcription that appeared in a guitar magazine a few
years back as a guide. Tune down 1/2 a step and use a wah-wah where
appropriate. The transcription actually says to use an envelope filter (what
the hell is that?!) and some reverb but when Edge plays it live he obviously
uses some sort of wah effect.

The intro-

E---7-----------------------------
B---7-----------------------------
G---8----------------------------- x 8
D---9---9--9s/------x--x-----7h9---
A---9---9--9s/---------------------
E-------7--7s/----------------------

For the verses this is the keyboard arranged for guitar-

Johnny take a walk with your sister the moon let her pale light in to
fill up
E--7---------------------------------------------------------------------
B--7---------------------------------------------------------------------
G--8-----8------------------9----------------------8----------------11---
D--9-----9------------------9----------------------9----------------11---
A--9---------------------------------------------------------------------
E--7---------------------------------------------------------------------

your room. You've been living underground, eating from a can, you've been
running away
E------------------------------------------------------------------------
B------------------------------------------------------------------------
G-----------------8-------------------9------------------------------8---
D-----------------9-------------------9------------------------------9---
A------------------------------------------------------------------------
E------------------------------------------------------------------------

from what you don't understand. Look,
E---------------------------------------
B---------------------------------------
G---------------11--------------8--------
D---------------11--------------9--------
A----------------------------------------
E----------------------------------------

The second verse is the same with the only difference being that after Bono
sings "you can't explain", Edge plays this-

E---------
B--15s/---
G--15s/---
D--15s/---
A---------
E---------

Note that instead of playing the synthesiser chords as I have tabbed them
above (ie. B(xx89xx),E5(xx99xx),F5(xx11 11xx)) you might want to just play
the bar chords (ie. B(799xxx),E(x799xx),F(x9 11 11xx)) as they sound ok and
in my opinion are easier to play.

For the pre-chorus Edge plays something like this-

She's slippery, You're sliding down she's gonna be
there when
E---7---7s/--------------------12---12s/---------------------7--7s/---------
B---7---7s/--------------------12---12s/---------------------7--7s/---------
G---8---8s/--------------------13---13s/---------------------8--8s/---------
D---9---9s/--------------------14---14s/---------------------9--9s/---------
A---9--------------------------14----------------------------9--------------
E---7--------------------------12----------------------------7--------------

you hit the ground
E------12--12--12--12--12-----12s/--
B------12--12--12--12--12-----12s/--
G------13--13--13--13--13-----13s/--
D------14--14--14-------------14s/--
A------14--14--14-------------14s/--
E------12--12--12-------------12s/--

For the second pre-chorus (ie she's the wave...) play something similar.

Now for the chorus-

It's alright, it's alright it's alright She moves
in
E----7--------------7-------------------------------12--10----10--10--10--10-
B----7--------------7-------------------------------12--10----10--10--10--10-
G----8--------------8------s/13----13--13--13-------13--11----11--11--11--11-
D----9--------------9------s/14----14--14--14-----------------12--12--12--12-
A----9--------------9------s/14----14--14--14-----------------12--12--12--12-
E----7--------------7------s/12----12--12--12-----------------10--10--10--10-

mysterious ways
E---5-----5-----5----5s/--
B---5-----5-----5----5s/--
G---6-----6-----6----6s/--
D---7-----7-----7----7s/-- and play the B E D and A chords over.
A---7-----7-----7----7s/--
E---5-----5-----5----5s/--

After the first chorus the intro riff is played 3 times.

Now for the bit just before the guitar solo. There are two guitars here. One
is playing this with some delay (listen to the record for the timing)-

E---17--19--17--19--17--19--17--19-
B----------------------------------
G---------------------------------- x 5

and the other is playing this (this is what Edge plays in the live version)-

E---2-------------------------
B---2--------------------------
G---3------------------------- x 5
D---4----4--4s/------x--2h4---
A---4----4--4s/---------------
E---2----2--2s/----------------

Now for the actual solo-

E----------------------------------------------------------------------------------
B-16--16--16--16-----------------------------16--16--16--16--x--x--17--x-x--16----14
G-14--14--14--14------------14---------------14--14--14--14--x--x--14--x-x--14----14
D---------------------14h16------16---14----------------------------------------14--
A-----------------------------------------------------------------------------------
E-----------------------------------------------------------------------------------

E------------------------------------------------------------------------------------
B--16--16--16--16--x--x--17--x--x--16----14-----16--16--16--16--x-x--16--17--16----14
G--14--14--14--14--x--x--14--x--x--14----14-----14--14--14--14--x-x--14--14--14----14
D-------------------------------------14----------------------------------------14---
A------------------------------------------------------------------------------------
E------------------------------------------------------------------------------------

E-----------------------------------------------------------------------------------
B-16--16--16--16--x-x--17--x-x--16----14----16--16--16--16--x--x-17--x-x--16-----14-
G-14--14--14--14--x-x--14--x-x--14----14----14--14--14--14--x--x-14--x-x--14-----14-
D----------------------------------14-----------------------------------------14----
A-----------------------------------------------------------------------------------
E-----------------------------------------------------------------------------------

For the bridge before the chorus simply play the chorus chords(ie. B,E,D,A)
arppeggio.
For example-

One day you'll look back and you'll see
E---7------------------------------------------------------------------------------
B---7-------------7----------------9-------9h10p9----------------------------------
G---8-------8--------8------8------9---9--------------9-----9-----11---11--11------
D---9-------9------------9---------9---------------------9--9-----12-------12------
A---9------------------------------7------------------------------12---------------
E---7-------------------------------------------------------------10---------------

where you were held how by this love
E----`------------------5--5--5---5---5-----
B-----------------------5--5--5---5---5-----
G------11------11-------6--6--6---6---6-----
D------12------12-------7--7--7---7---7-----
A------12------12-------7--7--7---7---7-----
E-----------------------5--5--5---5---5------

And then go back to playing the chorus chords normally. Play them during the
final time that the chorus is sung and end on the B chord.

That should have all the guitar bits and, by the way, the bass line (I think
the only really distinguishable one in the album version) is this-

G---------------------------------
D---------------------------------
A--------5-----5h7--5------------- over and over again.
E----7-------------------7----5---


Richard Zangoli.

Mysterious Ways Bass
from:Rhythm409@aol.com


Tune down 1/2 step.
I don't think there's any bass in the verses. The chords are B E B F#
Chorus:
A------------5---5/7--5-------------------------------------------
E------7-7---------------

One - U2


"One" 
--- 

Strumming pattern (for acoustic): 
 = down-stroke 

Á = up-stroke 

   Á  Á 
1 + 2 + 3 + 4 + 

Intro + main riff: h=hammer on 
p=pull off 
/=slide up 

b=bend 

One – U2


 zwrotka
h e
G A
ref:
You say  A
One love D
One life h
When it´s one need G
In the night D
It´s one love D
We get to share it h

Ordinary Love – U2


/d/The sea wants to /a/kiss the golden shore
/C/The sunlight warms your /G/skin
/d/All the beauty /a/that's been lost before
/C/Wants to find us /G/again


I can't fight you  anymore
It's you I'm fighting for
The sea throws rocks together
But /F/time leaves us /G/polished stones

Red Hill Mining Town – U2

      G
From father to son
      C
The blood runs thin
      D             A
Ooh, see the faces frozen still
      F            
Against the wind.
     

     Verse

So cruel – U2


tabbed by: Scott Yanoff, yanoff@csd4.csd.uwm.edu
Sergio Lucero, slucero@cipres.cec.uchile.cl



Intro: E-----10----9-5-----10----9-5---

A Asus4
We crossed the line
A Asus4
Who pushed who over?

Sometimes you can't make it on your own – U2

  A           A           G/A         G/A         F#/A        Dsus2

e -------------------------------------------------------------------------|
B -----2-2-3-2-----2-2-3-2-----2-2-3-2-----2-2-3-2-----2-2-3-2-----2-2-3-2-|
G -----2-2-2-2-----2-2-2-2-----2-2-2-2-----2-2-2-2-----2-2-2-2-----2-2-2-2-|
D --------------------------------------------------------------0----------|
A --0-----------0----------------------------------------------------------|
E --------------------------3-----------3-----------2----------------------|


~~~~~~~~~~~~~
A          G/A
Tough, you think you've got the stuff

       F#/A           Dsus2
You're telling me and anyone

Sweetest thing – U2


INTRO: C G/C F /G C G/C F /G

The same chord pattern repeats throughout for each of the 3 verses:

C G/C F /G C G/C F /G
1. My love she throws me like a rubber ball Ohhhhhh the sweetest thing
2. I wanted to run she made me crawl Ohhhhhh the sweetest thing
3. Blue eyed boy meets a brown eyed girl Ohhhhhh the sweetest thing

Tryin' To Throw Your Arms Around The World – U2


tabbed by: Sergio Lucero, slucero@cipres.cec.uchile.cl


A D
Six o'clock in the morning
A D
You're the last to hear the warning
A D A D
You've been trying to throw your arms around the world

Ultraviolet (Light My Way), – U2

Ultraviolet (Light My Way), by U2, from "Achtung Baby"

This is my tab for Ultraviolet, and it seems to be close to right. It
is similar to the other tabs on here for it. Corrections are welcome.

*Note, use delay pedal, set to about .4 seconds delay

CHORDS USED:
E x 7 9 9 9 x
A* x 7 7 9 10 x
D x x x 7 10 10
D* x x x 7 10 9
C#m x 4 6 6 5 4
B x 2 4 4 4 2
A x 0 2 2 2 0
Asus4 x 0 2 2 3 x

Until The End Of The World – U2

Until The End Of The World (live) 

Music by U2 
Lyrics by Bono 
Transcribed by Brandon Leniart 

Here is a very simplistic version of "Until The End Of The World" live,
tuned down 1/2 step. I finally realized Edge is a pretty smart for putting a
capo on the 3rd fret, and playing it like he did on the studio version. He
plays the same chords, just 1/2 step down with a capo on the 3rd fret. I'll
also give the chords if you don't have a capo. 

Who's Gonna Ride Your Wild Horses? – U2

tabbed by: Scott Yanoff, yanoff@csd4.csd.uwm.edu


G C
You're dangerous, 'cos you're honest
G C
You're dangerous, 'cos you don't know what you want
G C
Well you left my heart empty as a vacant lot
G C
For any spirit to haunt

D C D C
Hey hey sha la la, hey hey

You're an accident waiting to happen
You're a piece of glass left there on the beach
Well you tell me things I know you're not supposed to
Then you leave me just out of reach

Hey hey sha la la, hey hey sha la la la

Zoo station – U2

tabbed by: Scott Yanoff, yanoff@csd4.csd.uwm.edu 
Sergio Lucero, slucero@cipres.cec.uchile.cl 

*corrections-*Zoo Station--This song is in A, and I think the 
tab shows the song like 1- 10 10- In reality it would 
2- 8 8 - 

look like this: 1- 12 12 which would keep it 
2- 10 10 

in the key of A. This isn't a huge change, but necessary. 
(from Leniart, Brandon K (leniarbk@jmu.edu)) 


Use heavy distortion and make the slides heard. 

Napraw – Lemon

d     C     B     A

Ty widzisz, że nawet, kiedy śpię, płonę
Jedna myśl, daj mi wody
Pośród mych natchnień, Twoje łzy słone
Błagam, napraw mnie

Ukryty w kłamstwach, wobec prawd samych
Pisząc coś na kartkach starych
W imię tych ran nowych, które zadaję
Błagam, napraw mnie

Czy dasz radę kochać, mimo, że ja
Nie umiem już sam, bez Ciebie wstać
Czy dasz radę kochać, mimo Twych ran
Nie umiem już sam bez Ciebie wstać

Ostatni już raz sprawiłem, że Jej oczy płaczą
Pośród mych natchnień, Twoje łzy słone
Błagam, napraw mnie

Czy dasz radę kochać, mimo, że ja
Nie umiem już sam, bez Ciebie wstać x3
Czy dasz radę kochać, mimo Twych ran
Nie umiem już sam bez Ciebie wstać

Ostatni już raz sprawiłem, że Jej oczy płaczą
Pośród mych natchnień, Twoje łzy słone
Błagam, napraw mnie

Będę z tobą – LemON

zw. a G F ref. a e F e


Nigdy nie widziałem światła w swoim życiu
Jak nocny pies zbłąkany
Choć w twoich słowach
Prawdy nie słyszałem
Dzięki tobie jestem kim być chciałem
Czasami nie wiem jak mam się zachować
Ciągle szukam siebie
Chciałbym podążać za tym co czuję
Nie poznam prawdy gdy nie spróbuję
Gdy nie będę sobą bez twych słów
Bez twych rąk nie ma mnie

Mimo tylu pomyłek
I tak będę z tobą
Mimo tak wielu granic
I tak będę z tobą
Mimo tylu nieznanych
I tak będę z tobą
I tak będę sobą

Wielu jest takich
Którzy chcą mnie zmienić
Po prostu ich wysłucham
Ciągle miotany ze skrajności w skrajność
Wiesz tak dobrze znam to

Mimo tylu pomyłek
I tak będę z tobą
Mimo tak wielu granic
I tak będę z tobą
Mimo tylu nieznanych
I tak będę z tobą
I tak będę sobą

W oczy mi patrz zamiast w księżyc
Przecież wyciągasz mnie z mroku
Wyczuwam twoje zwątpienie
Podam ci teraz swą dłoń

Mimo tylu pomyłek
I tak będę z tobą
Mimo tak wielu granic
I tak będę z tobą
Mimo tylu nieznanych
I tak będę z tobą
I tak będę sobą

Nice – Lemon

Intro:  
e|-------------3------0-----------------------
B|--------0h1----0h1----0h1-------------------
G|-----2---------------------0----------------
D|--------------------------------------------
A|-------------------3------------------------
E|-----1--------------------0-----------------

zrobione przez:Dawid Żarnowski


Gdybyś powiedziała mi, że kiedyś będą tutaj wszyscy  F
Nigdy bym nie zwątpił w to co mam  a
Gdybym dostrzegł cię u mego boku w mojej bitwie wcześniej  F
Wtedy czułbym, że nie jestem sam  a

Przerzuć kartkę, zaryzykuj, bądź dziwakiem  F
Nie idź ścieżką, własną depcz, otwórz głowę  a
Zanim powiesz, zrozum, bądź  F
Nigdy nie burz, buduj, twórz  a
Smakuj, milcz, myśl i czuj  a,G

Zrozumiałem - by żyć musisz chwytać dzień  F,a,G
Wstań by biec, bo istnieć nie znaczy żyć  F,a,G
Weź się w garść, ten dzień jest twoim dniem  F,C,a,G
A wierzę, że będzie dla każdego z nas piękno w naszych sercach  F,C,a,G

Gdybym nie był sobą, gdybym w mojej bitwie miał kogoś -   F
Czy bym wtedy zwątpił i wciąż stał?  a
Gdyby każda strata mogła zysk dać i na mojej drodze,  F
Gdyby każdy kolec różę miał...  a

Komutując miejsce słów, migawki zobacz  F
Jest ryzyko oswojenia nadal  a
Zbędna mowa, nowa krótko skrzydła  F
Miękkość kości, kielich, ból, łapacz snów  a,G

Zrozumiałem - by żyć musisz chwytać dzień  F,a,G
Wstań by biec, bo istnieć nie znaczy żyć  F,a,G
Weź się w garść, ten dzień jest twoim dniem  F,C,a,G
A wierzę, że będzie dla każdego z nas piękno w naszych sercach  F,C,a,G

F,C,a,G



Tak wiele serc, wiele słów, wiele snów jest w nas  F,a,G
Tak wiele łez, wiele chwil, jest w nas  F,a,G
Tak wiele serc, wiele słów, wiele snów jest w nas  F,a,G
Tak wiele ciepła jest w nas, jest w nas  F,aG

Zrozumiałem - by żyć musisz chwytać dzień  F,a,G
Wstań by biec, bo istnieć nie znaczy żyć  F,a,G
Weź się w garść, ten dzień jest twoim dniem  F,C,a,G
A wierzę, że będzie dla każdego z nas piękno w naszych sercach  F,C,a,G

Nie ufaj mi – Wkręceni



Chwyty: E H Cis A

Rozszyfruj mnie, zdemaskuj blef
nie dowierzając unieś swą brew.
Podejdź i sprawdź, co w rękach mam.
Zburz jednym ruchem jak domek z kart.
Starasz się zasnąć,
zanim zrobi się znów jasno.
Wciąż wierzysz, że przejrzałaś mnie,
a patrząc z bliska widzisz najmniej.

Ref.
Życie jest małą ściemniarą,
wróblicą, wygą, cwaniarą.
Plącze nam nogi i mówi idź !
Nie wierz, nie ufaj mi !
Życie jest małą ściemniarą,
francą, wróblicą, cwaniarą.
Plącze nam nogi i mówi idź !
Wkręceni w zgubną nić!

Padał deszcz, tak jak dziś.
Miałaś uchylone drzwi,
stałem w nich, niczym pies,
w zębach niosąc bukiet ściem.
Zatrzasnęłaś je na klucz,
wystawiłaś mnie na bruk,
choć rację masz, że nie znasz mnie.
Jak mogłaś tak dać wkręcić się ?

Ref.
Życie jest małą ściemniarą,
wróblicą, wygą, cwaniarą.
Plącze nam nogi i mówi idź !
Nie wierz, nie ufaj mi !
Życie jest małą ściemniarą,
francą, wróblicą, cwaniarą.
Plącze nam nogi i mówi idź !
Wkręceni w zgubną nić ! / x2

Bez Ciebie – Ewa Farna

  


 G            e               G
1.Na dwa serca dzielisz świat
    G            e               G
  każdy ma to, co drugiemu skradł
  W cichej wojnie znowu tracisz głos
  z kart znakowanych odgadujesz
  los.

Ref:
Bez Ciebie pójdę dalej              G e
i w słońcu się ozłocę            
i w kwiatach się zaśmieję
i w liściach zamigoczę              C D
Tylko ja.

2.Ze mną chodź na miłości start
  porzuć stosy znaczonych kart
  bo na te wojny ze mną nie masz szans
  na polu bitwy zawsze zostaniesz
  sam.

Ref2:
Bez Ciebie pójdę dalej
i w słońcu się ozłocę
i w kwiatach się zaśmieję
i w liściach zamigoczę
Bo choć odejdę sama
w liściach zamigoczę
żeby zwabić Cię

Bez Ciebie pójdę dalej
Bez Ciebie pójdę dalej

Tylko ja

sobota, 4 stycznia 2014

10 w skali Beuforta – Harcerskie

Kołysał nas zachodni wiatr,                        a  d
Brzeg gdzieś za rufą został                        E7  a
I nagle ktoś jak papier zbladł                        d  a
Sztorm idzie panie bosman.                        H7 E7

A bosman tylko zapiął płaszcz                           F  C F  C
i zaklnął:Ech do czorta!                                     F  E7  a
Nie daje łajbie rzadnych szans!                                    F  G  a  E7
10 w skali beuforta!                                      F  E7  a

Z zasłony ołowianych chmur
Ulewa spadła nagle,
Rzycało nami w górę i w dół
I fala zmyła żagle.

Ref:.          
 A bosman tylko zapiął płaszcz

O pokład znów uderzył deszcz
I padał aż do rana,
Diabelnie ciężki to był rejs
Szczególnie dla bosmana.

Ref:.        
A bosman tylko zapiął płaszcz

900 mil – Harcerskie

1.
     Tyle już minęło dni,                    a
     Czas wysuszył z oczu łzy,               a
     Żaden list nie czeka ma mnie tu.        e

Ref: Gdyby pociąg szybciej biegł             F C
     Bym był w domu jeszcze dziś,            d a
     Jeszcze 900 mil tam gdzie mój dom.      F E a

2.
     Pociąg, który wiezie mnie,              a
     Ma wagonów chyba sto,                   a
     Stukot kół już słychać na sto mil       e

Ref: Gdyby pociąg szybciej biegł,            F C
     Bym był w domu jeszcze dziś,            d a
     Jeszcze 900 mil tam gdzie mój dom.      F E a

3.
     Oddam wszystko to co mam,               a
     Oddam wam pierścionek swój,             a
     I walizkę swoją oddam wam.              e

Ref: Gdyby pociąg szybciej biegł,            F C
     Bym był w domu jeszcze dziś,            d a
     Jeszcze 900 mil tam gdzie mój dom.      F E a

4.
     Gdy dziewczyna powie nie,               a
     Nie zostawię więcej jej,                a
     Nie opuszczę swych rodzinnych stron.    e

Ref: Gdyby pociąg szybciej biegł,            F C
     Bym był w domu jeszcze dziś,            d a
     Jeszcze 900 mil tam gdzie mój dom.      F E a